a b c d e f g h i j k l m n o p q r s t u v w x y z 0-9

Hacelo Por Mi

Attaque 77

			
Intro:

Guitarra 1 acompa=F1a a la 2
Guitarra con distorci=F3n 1

                          
|----------------------|            
|----------------------|  
|--------------6-------|   
|-----2--------6-------|     ( X 2 - Repetir 2 VECES)=20
|-----2--------4-------|   
|-----0----------------|   


Guitarra con distorci=F3n 2

|-0-----------------------------------------|
|-0-----------------------------------------|
|-1-----------------------------------------|
|-2-------------------------6---------------|
|-2----------2-4--7-7-6-6-4----7-7-6-4------|
|-0--0-2-3-4---------------------------3h4--|


 
|--0------------------------------------------|
|--0------------------------------------------|
|--1------------------------------------------|
|--2----------2--------------6----------------|
|--2------------4--7-7-6-6-4----7-7-6-6-4-4---|
|--0--0-2-3-4---------------------------------|


Guitarra con distorci=F3n 1 Y 2

|-------------------|
|-------------------|
|------4---------4--|
|-4----4----7----4--|
|-4----2----7----2--|
|-2---------5-------|


 


 

Fuente original ATAME [www.atame.org]
Colaborador original: Eduardo Morelli [eduardo_ferro@fullzero.com.ar]

Fuente: tusacordes.com