a b c d e f g h i j k l m n o p q r s t u v w x y z 0-9

Bendito Jesús

Danilo Montero

			
INTRO:
e-11-11-11-11-------11---------------------------------
B-------------12-------14---14-14-14-14-12-11---12-----
G----------------11--------------------------11--------
D------------------------------------------------------
A------------------------------------------------------
E------------------------------------------------------

e----------------11---------12----12-11----------------
B-12-12-12-12-14----12---------12-------12-------------
G----------------------13-13---------------------------
D------------------------------------------------------
A------------------------------------------------------
E------------------------------------------------------

B               F#                 G#m
por ti es mi clamor, y sin ningún temor
    E           F#    E         B
en ti puedo confiar, bentido Jesús
                F#                 G#m
hoy puedo escuchar, tu voz de sanidad
    E           F#    E         B
restaurando mi ser, bendito Jesús
      F#     B
JEEEEEEE EE EE

CORO

B              F#                 G#m
mi deseo eres tú, mi momento de amor
                 E               B
la alegría de vivir, bendito Jesús
B              F#                 G#m
eres mi fuente de amor, eres aire, y eres Sol
                 E               B
el latir del corazón, bendito Jesús
          F#          E
bendito amor de mi seńor


B              F#                 G#m
Tú gracia y favor, conmigo puedo ver
    E           F#    E         B
Llenando hoy mi ser, Bendito Jesús.
              F#                 G#m
hoy mi voluntad, se rinde a tu verdad
    E           F#    E         B
Tú amor y tu bondad, Bendito Jesús
      F#     B
JEEEEEEE EE EE


CORO

B              F#                 G#m
mi deseo eres tú, mi momento de amor
                 E               B
la alegría de vivir, bendito Jesús
B              F#                 G#m
eres mi fuente de amor, eres aire, y eres Sol
                 E               B
el latir del corazón, bendito Jesús
          F#          E
bendito amor de mi seńor


G#m       F#          E
Bendito amor de mi Seńor
G#m       F#          E       F#       B
Bendito amor de mi Seńor.


ESPERO MI VERSIÓN LES GUSTE!!
LA MUSICA ME ENCARGA Y RECUERDA
CUANDO SE CANTA SE ORA DOS VECES
GRACIAS!!

ENVIADA POR WIGELFuente: Tus acordes