a b c d e f g h i j k l m n o p q r s t u v w x y z 0-9

Un Poquito De Tu Amor

Gustavo Santaolalla

A
B
			
Intro: Parte A x2  Parte B


Estrofa sobre Intro

Em Em/D C  G
Me  pinto caras, 
Em   Em/D C G
Juego al  león, 
C         G    C7+ D7   G
Por un poquito de  tu amor.-


Muestro la herida,
Suelto la voz,
Por un poquito de tu amor.-

       A B C     D  
Y solo dame un poco más?
Em*  Em/D      C           Am7        G#m7
Síndrome de abstinencia tu esencia me da
Am7           D7     G  G4 G
Si no hay una dosis más.-

Intro

Bailo en cornisas,
Lo que tengo doy,
Por un poquito de tu amor.-

Me juego todo,
Me subo al sol,
Por un poquito de tu amor.-


Y dame mucho, mucho más,
Síndrome de abstinencia tu esencia me da

Am7           D7     
Si no hay una dosis,
Am7           D7     
Si no hay otra dosis,
Am7           D7     G    Intro Parte A y B
Si no hay un poquito más.-





Intro Parte A

  Em  Em/D C  G
E|-3---2---0---------
B|------------0------
G|-------------------    
D|-2---0---3---------
A|-------------------
E|------------3------



Intro Parte B

   C      G  C7+ D7  G
E|-2-2-3---------2---1--
B|--------0--0---1---0--
G|---------------2---0--
D|---------------0---0--
A|-3-3-3-----3-------2--
G|--------3----------3--




C7+: X32000
Em*: XX2000  
Em/D XX0000  
:  Bajos   

Fuente: tusacordes.com