a b c d e f g h i j k l m n o p q r s t u v w x y z 0-9

19 Dias Y 500 Noches

Joaquin Sabina

			
Esta es la introducción de "19 días y 500 noches".Los acordes son sencillos. 

-12-12-12-10----------10-10h12-10---------------------------------------------
--------------13-13---------------13-13-12h13p12------------------------------
------------------------------------------------------------------------------
------------------------------------------------------------------------------
------------------------------------------------------------------------------
------------------------------------------------------------------------------
                                                                              

------------------------------------------------------------------------------
-9--10--11--12--10----7--9--10--9--7--5---------------------------------------
------------------------------------------------------------------------------
-9--11--12--13--11----7--9--11--9--7--6---------------------------------------
------------------------------------------------------------------------------
------------------------------------------------------------------------------
                                                                              

--------------------9---10---11-----------------------------------------------
-9--10--11--12--12--8----9---10-----------------------------------------------
--------------------9---10---11-----------------------------------------------
-9--11--12--13--13------------------------------------------------------------
------------------------------------------------------------------------------
------------------------------------------------------------------------------
 Lo nuestro duro     lo que duran dos peces de hielo en un guisqui on         

--------------0-------------------------------0-------------------------------
--------------0-------------------------------2-------------------------------
--------------1-------------------------------3-------------------------------
--------------2-------------------------------2-------------------------------
--------------2-------------------------------x-------------------------------
--------------0-------------------------------x-------------------------------
  the rocks       en vez de fingir     o estrellarme una copa de celos        

--------2-----------------------2--------------2------------------2-----------
--------2-----------------------4--------------2------------------4-----------
--------2-----------------------2--------------2------------------2-----------
--------4-----------------------4--------------4------------------4-----------
--------4-----------------------2--------------4------------------2-----------
--------2-----------------------2--------------2------------------2-----------
 le dio por reir    de pronto me vi como un perro  de nadie ladrar a las      

-------------0--------------------------------0-------------------------------
-------------0--------------------------------3-------------------------------
-------------1--------------------------------1-------------------------------
-------------2--------------------------------2-------------------------------
-------------2--------------------------------2-------------------------------
-------------0--------------------------------0-------------------------------
 puertas del cielo    me dejo    un neceser con agravio  la  miel  en los     

--------------0-----------0-----------------------0------------4--------------
--------------2-----------1-----------------------0------------6--------------
--------------2-----------2-----------------------1------------4--------------
--------------2-----------2-----------------------2------------6--------------
--------------0-----------0-----------------------2------------4--------------
--------------0-----------0-----------------------0------------4--------------
 labios        y escarcha en el pelo                     ...etc etc           

--2--------2---------------------0--------------------------------------------
--2--------4---------------------0--------------------------------------------
--2--------2---------------------1--------------------------------------------
--4--------4---------------------2----6-7-8-9---------------------------------
--4--------2---------------------2------------6-7-8-9-------------------------
--2--------2---------------------0--------------------------------------------

Fuente original ATAME [www.atame.org]
Colaborador original: jose miguel aspas [jomas@alehop.com]

Fuente: tusacordes.com