a b c d e f g h i j k l m n o p q r s t u v w x y z 0-9

Ven Aquí

Los Bunkers

			
yujjju 2 º kolaboracion!!!


esta parte es el verso!!!
g----------------------------------------------------------
d--------------------------------------------------5--5--5-
a--5--5--5---------------5--5--5---------------5----------
E------------5--5---5----------------5--5--5--------------

g------------------------------
d-------5-----------------------
a--5--5---5--3--3--3/2----3/2-----
E-------------------------------


CORO

g--------------------------------------------------
d--------------------------------------------------
a-5--5---5----------------5--5--5----------------
E--------------5--5--5-----------------5---6-5------

g--------------------------7---9---------
d----5---7---8---12---10-----------5-----
a------------------------5---7-----------
E--3---5---6---10---8------------3-------   X2


puente

g----------------------
d----------------------
a----------------------3
E-1------2-------3------ X2


vale eso es todo
wiiiiiii
rock +roll = atte
sebasFuente: Tus acordes