a b c d e f g h i j k l m n o p q r s t u v w x y z 0-9

Despues De La Caida

Rene Gonzalez

Em
C
D
Am
G
			
Em           C      D   D D
 ----------0--/-------0--/--2----2--2--/   [Se repite]
 ----------0--/-------1--/--3----3--3--/
 ----------0--/-------0--/--2----2--2--/
 -------------/----------/--0----0--0--/
 --------2----/-0-2-3----/-------------/
 -3-2-0-------/----------/-------------/

Em                C          D
  Despues de una caída, ¿Quién sana?.
Em               C         D
  Las profundas heridas, Que quedan.
                    Am                          Si7
  Será el que te condena, o aquél que viene a ayudar.

  E--12--10--7/5--0-------------
  B-----------------------------
  G-----------------------------

  
Em               C          D
  Despues de la caída, ¿Quién queda?.
Em                C          D
  Si los que compartieron tus ideas, O los que 
        Am                  Si7
  mil maneras, te quieren acusar. 
Am               D          G 
  Despues de la caída, Te das cuenta.
          C                Am
  Que son pocos los que muestran,
                    C                        Si7
  Lo que un día recibieron, la virtud de perdonar.
Am                               D
  Despues de la caída solo que da alguien.
Si7                                Em
  Que no solo disfruta de tu bienestar.
Am                                  Si7
  Que no solo aparece cuando todo es fiesta.
Em                 Si7               Em
  Que va contigo al paso que puedas andar.
Am                                     D
  Que aún cuando los tuyos te han abandonado.
Si7                              Em
  Y apuntan con el dedo para señalar,
Am                                  Si7
  Jesús sin comentarios no arrojó la piedra.
Em               D                C
  Dejándola en el suelo te dió libertad.

Em               D                C


Em  C  D Am       Em  C  D Am        harmónicas
---------2--0--------/---------2--0/10-12-10---------12
---------3--1--------/---------3--1/--------12-13-12-12
-------0-2--2--------/-------0-2--2/-----------------12
--2---2--0--2-----0-2/--2---2--0--2/-------------------
-2-2-3------0-0-2----/-2-2-3------0/-------------------
0--------------------/0------------/-------------------

Em                  C       D
  Quién somos para estar condenando.
Em               C         D
  Si nuestra condición nos delata.
                    Am                  Si7
  Que somos inperfectos, propensos a fallar.

                     Em
 --------------------0--/
 --------------------0--/
 --------------------0--/
 --------0--2--------2--/
 --0--2--------0--2--2--/
 --------------------0--/

Em               C                 D
  Porque tomar el juicio en nuestras manos.
Em             C           D
  Actuando bajo nuestra conveniencia.
                      Am                     Si7
  Nos ciega la apariencia, Y juzgamos sin piedad.
Am                D            G 
  Mirando hacia la cruz vemos el cuadro,
          C           Am                     C
  Del que fue crucificado, entregando asi su vida,
                      Si7
  Para el hombre perdonar.
Am                              D
  Despues de la caída solo queda alguien.
Si7                                Em
  Que no solo disfruta de tu bienestar.
Am                                  Si7
  Que no solo aparece cuando todo es fiesta.
Em                 Si7               Em
  Que va contigo al paso que puedas andar.
Am                                     D
  Que aun cuando los tuyos te han abandonado.
Si7                              Em
  Y apuntan con el dedo para señalar.
Am                                 Si7
  Jesús sin comentario no arrojó la piedra,
Em               D                C
  Dejándola en el suelo te dió libertad,
Em               D                C
  Dejandola en el suelo te dió libertad.

Fuente: Tusacordes